0
SECTION
2
ENTITIES
0
SOLID
8
0
10
  100.000
20
  100.000
30
  100.000
11
  100.000
21
  105.556
31
  100.000
12
  116.949
22
  100.000
32
  100.000
13
  116.949
23
  106.111
33
  100.000
0
SOLID
8
0
10
  116.949
20
  100.000
30
  100.000
11
  116.949
21
  106.111
31
  100.000
12
  133.898
22
  100.000
32
  100.000
13
  133.898
23
  105.000
33
  100.000
0
SOLID
8
0
10
  133.898
20
  100.000
30
  100.000
11
  133.898
21
  105.000
31
  100.000
12
  150.847
22
  100.000
32
  100.000
13
  150.847
23
  106.667
33
  100.000
0
SOLID
8
0
10
  150.847
20
  100.000
30
  100.000
11
  150.847
21
  106.667
31
  100.000
12
  167.797
22
  100.000
32
  100.000
13
  167.797
23
  102.222
33
  100.000
0
SOLID
8
0
10
  167.797
20
  100.000
30
  100.000
11
  167.797
21
  102.222
31
  100.000
12
  184.746
22
  100.000
32
  100.000
13
  184.746
23
  108.889
33
  100.000
0
SOLID
8
0
10
  184.746
20
  100.000
30
  100.000
11
  184.746
21
  108.889
31
  100.000
12
  201.695
22
  100.000
32
  100.000
13
  201.695
23
  106.111
33
  100.000
0
SOLID
8
0
10
  201.695
20
  100.000
30
  100.000
11
  201.695
21
  106.111
31
  100.000
12
  218.644
22
  100.000
32
  100.000
13
  218.644
23
  105.000
33
  100.000
0
SOLID
8
0
10
  218.644
20
  100.000
30
  100.000
11
  218.644
21
  105.000
31
  100.000
12
  235.593
22
  100.000
32
  100.000
13
  235.593
23
  111.667
33
  100.000
0
SOLID
8
0
10
  235.593
20
  100.000
30
  100.000
11
  235.593
21
  111.667
31
  100.000
12
  252.542
22
  100.000
32
  100.000
13
  252.542
23
  110.556
33
  100.000
0
SOLID
8
0
10
  252.542
20
  100.000
30
  100.000
11
  252.542
21
  110.556
31
  100.000
12
  269.492
22
  100.000
32
  100.000
13
  269.492
23
  117.222
33
  100.000
0
SOLID
8
0
10
  269.492
20
  100.000
30
  100.000
11
  269.492
21
  117.222
31
  100.000
12
  286.441
22
  100.000
32
  100.000
13
  286.441
23
  111.667
33
  100.000
0
SOLID
8
0
10
  286.441
20
  100.000
30
  100.000
11
  286.441
21
  111.667
31
  100.000
12
  303.390
22
  100.000
32
  100.000
13
  303.390
23
  111.667
33
  100.000
0
SOLID
8
0
10
  303.390
20
  100.000
30
  100.000
11
  303.390
21
  111.667
31
  100.000
12
  320.339
22
  100.000
32
  100.000
13
  320.339
23
  115.000
33
  100.000
0
SOLID
8
0
10
  320.339
20
  100.000
30
  100.000
11
  320.339
21
  115.000
31
  100.000
12
  337.288
22
  100.000
32
  100.000
13
  337.288
23
  115.556
33
  100.000
0
SOLID
8
0
10
  337.288
20
  100.000
30
  100.000
11
  337.288
21
  115.556
31
  100.000
12
  354.237
22
  100.000
32
  100.000
13
  354.237
23
  121.667
33
  100.000
0
SOLID
8
0
10
  354.237
20
  100.000
30
  100.000
11
  354.237
21
  121.667
31
  100.000
12
  371.186
22
  100.000
32
  100.000
13
  371.186
23
  121.667
33
  100.000
0
SOLID
8
0
10
  371.186
20
  100.000
30
  100.000
11
  371.186
21
  121.667
31
  100.000
12
  388.136
22
  100.000
32
  100.000
13
  388.136
23
  124.444
33
  100.000
0
SOLID
8
0
10
  388.136
20
  100.000
30
  100.000
11
  388.136
21
  124.444
31
  100.000
12
  405.085
22
  100.000
32
  100.000
13
  405.085
23
  131.111
33
  100.000
0
SOLID
8
0
10
  405.085
20
  100.000
30
  100.000
11
  405.085
21
  131.111
31
  100.000
12
  422.034
22
  100.000
32
  100.000
13
  422.034
23
  133.889
33
  100.000
0
SOLID
8
0
10
  422.034
20
  100.000
30
  100.000
11
  422.034
21
  133.889
31
  100.000
12
  438.983
22
  100.000
32
  100.000
13
  438.983
23
  123.333
33
  100.000
0
SOLID
8
0
10
  438.983
20
  100.000
30
  100.000
11
  438.983
21
  123.333
31
  100.000
12
  455.932
22
  100.000
32
  100.000
13
  455.932
23
  132.222
33
  100.000
0
SOLID
8
0
10
  455.932
20
  100.000
30
  100.000
11
  455.932
21
  132.222
31
  100.000
12
  472.881
22
  100.000
32
  100.000
13
  472.881
23
  148.889
33
  100.000
0
SOLID
8
0
10
  472.881
20
  100.000
30
  100.000
11
  472.881
21
  148.889
31
  100.000
12
  489.831
22
  100.000
32
  100.000
13
  489.831
23
  160.000
33
  100.000
0
SOLID
8
0
10
  489.831
20
  100.000
30
  100.000
11
  489.831
21
  160.000
31
  100.000
12
  506.780
22
  100.000
32
  100.000
13
  506.780
23
  184.444
33
  100.000
0
SOLID
8
0
10
  506.780
20
  100.000
30
  100.000
11
  506.780
21
  184.444
31
  100.000
12
  523.729
22
  100.000
32
  100.000
13
  523.729
23
  196.667
33
  100.000
0
SOLID
8
0
10
  523.729
20
  100.000
30
  100.000
11
  523.729
21
  196.667
31
  100.000
12
  540.678
22
  100.000
32
  100.000
13
  540.678
23
  262.222
33
  100.000
0
SOLID
8
0
10
  540.678
20
  100.000
30
  100.000
11
  540.678
21
  262.222
31
  100.000
12
  557.627
22
  100.000
32
  100.000
13
  557.627
23
  367.222
33
  100.000
0
SOLID
8
0
10
  557.627
20
  100.000
30
  100.000
11
  557.627
21
  367.222
31
  100.000
12
  574.576
22
  100.000
32
  100.000
13
  574.576
23
  494.444
33
  100.000
0
SOLID
8
0
10
  574.576
20
  100.000
30
  100.000
11
  574.576
21
  494.444
31
  100.000
12
  591.525
22
  100.000
32
  100.000
13
  591.525
23
  638.889
33
  100.000
0
SOLID
8
0
10
  591.525
20
  100.000
30
  100.000
11
  591.525
21
  638.889
31
  100.000
12
  608.475
22
  100.000
32
  100.000
13
  608.475
23
  870.556
33
  100.000
0
SOLID
8
0
10
  608.475
20
  100.000
30
  100.000
11
  608.475
21
  870.556
31
  100.000
12
  625.424
22
  100.000
32
  100.000
13
  625.424
23
 1083.333
33
  100.000
0
SOLID
8
0
10
  625.424
20
  100.000
30
  100.000
11
  625.424
21
 1083.333
31
  100.000
12
  642.373
22
  100.000
32
  100.000
13
  642.373
23
 1044.444
33
  100.000
0
SOLID
8
0
10
  642.373
20
  100.000
30
  100.000
11
  642.373
21
 1044.444
31
  100.000
12
  659.322
22
  100.000
32
  100.000
13
  659.322
23
  921.667
33
  100.000
0
SOLID
8
0
10
  659.322
20
  100.000
30
  100.000
11
  659.322
21
  921.667
31
  100.000
12
  676.271
22
  100.000
32
  100.000
13
  676.271
23
  632.222
33
  100.000
0
SOLID
8
0
10
  676.271
20
  100.000
30
  100.000
11
  676.271
21
  632.222
31
  100.000
12
  693.220
22
  100.000
32
  100.000
13
  693.220
23
  535.556
33
  100.000
0
SOLID
8
0
10
  693.220
20
  100.000
30
  100.000
11
  693.220
21
  535.556
31
  100.000
12
  710.169
22
  100.000
32
  100.000
13
  710.169
23
  501.667
33
  100.000
0
SOLID
8
0
10
  710.169
20
  100.000
30
  100.000
11
  710.169
21
  501.667
31
  100.000
12
  727.119
22
  100.000
32
  100.000
13
  727.119
23
  571.111
33
  100.000
0
SOLID
8
0
10
  727.119
20
  100.000
30
  100.000
11
  727.119
21
  571.111
31
  100.000
12
  744.068
22
  100.000
32
  100.000
13
  744.068
23
  603.333
33
  100.000
0
SOLID
8
0
10
  744.068
20
  100.000
30
  100.000
11
  744.068
21
  603.333
31
  100.000
12
  761.017
22
  100.000
32
  100.000
13
  761.017
23
  573.333
33
  100.000
0
SOLID
8
0
10
  761.017
20
  100.000
30
  100.000
11
  761.017
21
  573.333
31
  100.000
12
  777.966
22
  100.000
32
  100.000
13
  777.966
23
  429.444
33
  100.000
0
SOLID
8
0
10
  777.966
20
  100.000
30
  100.000
11
  777.966
21
  429.444
31
  100.000
12
  794.915
22
  100.000
32
  100.000
13
  794.915
23
  281.667
33
  100.000
0
SOLID
8
0
10
  794.915
20
  100.000
30
  100.000
11
  794.915
21
  281.667
31
  100.000
12
  811.864
22
  100.000
32
  100.000
13
  811.864
23
  206.667
33
  100.000
0
SOLID
8
0
10
  811.864
20
  100.000
30
  100.000
11
  811.864
21
  206.667
31
  100.000
12
  828.814
22
  100.000
32
  100.000
13
  828.814
23
  176.111
33
  100.000
0
SOLID
8
0
10
  828.814
20
  100.000
30
  100.000
11
  828.814
21
  176.111
31
  100.000
12
  845.763
22
  100.000
32
  100.000
13
  845.763
23
  148.333
33
  100.000
0
SOLID
8
0
10
  845.763
20
  100.000
30
  100.000
11
  845.763
21
  148.333
31
  100.000
12
  862.712
22
  100.000
32
  100.000
13
  862.712
23
  129.444
33
  100.000
0
SOLID
8
0
10
  862.712
20
  100.000
30
  100.000
11
  862.712
21
  129.444
31
  100.000
12
  879.661
22
  100.000
32
  100.000
13
  879.661
23
  132.222
33
  100.000
0
SOLID
8
0
10
  879.661
20
  100.000
30
  100.000
11
  879.661
21
  132.222
31
  100.000
12
  896.610
22
  100.000
32
  100.000
13
  896.610
23
  123.333
33
  100.000
0
SOLID
8
0
10
  896.610
20
  100.000
30
  100.000
11
  896.610
21
  123.333
31
  100.000
12
  913.559
22
  100.000
32
  100.000
13
  913.559
23
  122.222
33
  100.000
0
SOLID
8
0
10
  913.559
20
  100.000
30
  100.000
11
  913.559
21
  122.222
31
  100.000
12
  930.508
22
  100.000
32
  100.000
13
  930.508
23
  126.667
33
  100.000
0
SOLID
8
0
10
  930.508
20
  100.000
30
  100.000
11
  930.508
21
  126.667
31
  100.000
12
  947.458
22
  100.000
32
  100.000
13
  947.458
23
  121.667
33
  100.000
0
SOLID
8
0
10
  947.458
20
  100.000
30
  100.000
11
  947.458
21
  121.667
31
  100.000
12
  964.407
22
  100.000
32
  100.000
13
  964.407
23
  117.222
33
  100.000
0
SOLID
8
0
10
  964.407
20
  100.000
30
  100.000
11
  964.407
21
  117.222
31
  100.000
12
  981.356
22
  100.000
32
  100.000
13
  981.356
23
  115.000
33
  100.000
0
SOLID
8
0
10
  981.356
20
  100.000
30
  100.000
11
  981.356
21
  115.000
31
  100.000
12
  998.305
22
  100.000
32
  100.000
13
  998.305
23
  115.000
33
  100.000
0
SOLID
8
0
10
  998.305
20
  100.000
30
  100.000
11
  998.305
21
  115.000
31
  100.000
12
 1015.254
22
  100.000
32
  100.000
13
 1015.254
23
  117.222
33
  100.000
0
SOLID
8
0
10
 1015.254
20
  100.000
30
  100.000
11
 1015.254
21
  117.222
31
  100.000
12
 1032.203
22
  100.000
32
  100.000
13
 1032.203
23
  113.889
33
  100.000
0
SOLID
8
0
10
 1032.203
20
  100.000
30
  100.000
11
 1032.203
21
  113.889
31
  100.000
12
 1049.152
22
  100.000
32
  100.000
13
 1049.152
23
  110.556
33
  100.000
0
SOLID
8
0
10
 1049.152
20
  100.000
30
  100.000
11
 1049.152
21
  110.556
31
  100.000
12
 1066.102
22
  100.000
32
  100.000
13
 1066.102
23
  107.222
33
  100.000
0
SOLID
8
0
10
 1066.102
20
  100.000
30
  100.000
11
 1066.102
21
  107.222
31
  100.000
12
 1083.051
22
  100.000
32
  100.000
13
 1083.051
23
  107.778
33
  100.000
0
SOLID
8
0
10
 1083.051
20
  100.000
30
  100.000
11
 1083.051
21
  107.778
31
  100.000
12
 1100.000
22
  100.000
32
  100.000
13
 1100.000
23
  106.111
33
  100.000
0
LINE
8
0
10
  100.000
20
  100.000
30
  100.000
11
 1100.000
21
  100.000
31
  100.000
0
LINE
8
0
10
  100.000
20
  100.000
30
  100.000
11
  100.000
21
 1100.000
31
  100.000
0
LINE
8
0
10
 1100.000
20
  100.000
30
  100.000
11
 1100.000
21
 1100.000
31
  100.000
0
LINE
8
0
10
  100.000
20
  100.000
30
  100.000
11
  100.000
21
   83.333
31
  100.000
0
TEXT
8
0
10
   73.333
20
   63.333
30
  100.000
40
   20.000
1
26.5
0
LINE
8
0
10
  269.492
20
  100.000
30
  100.000
11
  269.492
21
   83.333
31
  100.000
0
TEXT
8
0
10
  242.825
20
   63.333
30
  100.000
40
   20.000
1
26.6
0
LINE
8
0
10
  438.984
20
  100.000
30
  100.000
11
  438.984
21
   83.333
31
  100.000
0
TEXT
8
0
10
  412.318
20
   63.333
30
  100.000
40
   20.000
1
26.7
0
LINE
8
0
10
  608.473
20
  100.000
30
  100.000
11
  608.473
21
   83.333
31
  100.000
0
TEXT
8
0
10
  581.807
20
   63.333
30
  100.000
40
   20.000
1
26.8
0
LINE
8
0
10
  777.965
20
  100.000
30
  100.000
11
  777.965
21
   83.333
31
  100.000
0
TEXT
8
0
10
  751.299
20
   63.333
30
  100.000
40
   20.000
1
26.9
0
LINE
8
0
10
  947.458
20
  100.000
30
  100.000
11
  947.458
21
   83.333
31
  100.000
0
TEXT
8
0
10
  934.124
20
   63.333
30
  100.000
40
   20.000
1
27
0
LINE
8
0
10
 1116.950
20
  100.000
30
  100.000
11
 1116.950
21
   83.333
31
  100.000
0
TEXT
8
0
10
 1090.283
20
   63.333
30
  100.000
40
   20.000
1
27.1
0
LINE
8
0
10
  100.000
20
  100.000
30
  100.000
11
  116.667
21
  100.000
31
  100.000
0
LINE
8
0
10
 1083.333
20
  100.000
30
  100.000
11
 1100.000
21
  100.000
31
  100.000
0
TEXT
8
0
10
   73.333
20
   90.000
30
  100.000
40
   20.000
1
0
0
LINE
8
0
10
  100.000
20
  238.889
30
  100.000
11
  116.667
21
  238.889
31
  100.000
0
LINE
8
0
10
 1083.333
20
  238.889
30
  100.000
11
 1100.000
21
  238.889
31
  100.000
0
TEXT
8
0
10
   46.667
20
  228.889
30
  100.000
40
   20.000
1
250
0
LINE
8
0
10
  100.000
20
  377.778
30
  100.000
11
  116.667
21
  377.778
31
  100.000
0
LINE
8
0
10
 1083.333
20
  377.778
30
  100.000
11
 1100.000
21
  377.778
31
  100.000
0
TEXT
8
0
10
   46.667
20
  367.778
30
  100.000
40
   20.000
1
500
0
LINE
8
0
10
  100.000
20
  516.667
30
  100.000
11
  116.667
21
  516.667
31
  100.000
0
LINE
8
0
10
 1083.333
20
  516.667
30
  100.000
11
 1100.000
21
  516.667
31
  100.000
0
TEXT
8
0
10
   46.667
20
  506.667
30
  100.000
40
   20.000
1
750
0
LINE
8
0
10
  100.000
20
  655.556
30
  100.000
11
  116.667
21
  655.556
31
  100.000
0
LINE
8
0
10
 1083.333
20
  655.556
30
  100.000
11
 1100.000
21
  655.556
31
  100.000
0
TEXT
8
0
10
   33.333
20
  645.556
30
  100.000
40
   20.000
1
1000
0
LINE
8
0
10
  100.000
20
  794.444
30
  100.000
11
  116.667
21
  794.444
31
  100.000
0
LINE
8
0
10
 1083.333
20
  794.444
30
  100.000
11
 1100.000
21
  794.444
31
  100.000
0
TEXT
8
0
10
   33.333
20
  784.444
30
  100.000
40
   20.000
1
1250
0
LINE
8
0
10
  100.000
20
  933.333
30
  100.000
11
  116.667
21
  933.333
31
  100.000
0
LINE
8
0
10
 1083.333
20
  933.333
30
  100.000
11
 1100.000
21
  933.333
31
  100.000
0
TEXT
8
0
10
   33.333
20
  923.333
30
  100.000
40
   20.000
1
1500
0
LINE
8
0
10
  100.000
20
 1072.222
30
  100.000
11
  116.667
21
 1072.222
31
  100.000
0
LINE
8
0
10
 1083.333
20
 1072.222
30
  100.000
11
 1100.000
21
 1072.222
31
  100.000
0
TEXT
8
0
10
   33.333
20
 1062.222
30
  100.000
40
   20.000
1
1750
0
LINE
8
0
10
  100.000
20
 1211.111
30
  100.000
11
  116.667
21
 1211.111
31
  100.000
0
LINE
8
0
10
 1083.333
20
 1211.111
30
  100.000
11
 1100.000
21
 1211.111
31
  100.000
0
TEXT
8
0
10
   33.333
20
 1201.111
30
  100.000
40
   20.000
1
2000
0
ENDSEC
0
EOF
